Little Sadie

(/) Slide Up  (\) Slide Down  (h) Hammer On  (p) Pull Off  (b) Bend (r) Release (v) Vibrato


E|---------------------------------------------------
B|---------1--3p1------------------------------------
G|--2p1h2----------2p0-----------------0--2p0--------
D|----------------------3--0----2p1h2----------3--0--
A|---------------------------------------------------
E|---------------------------------------------------



E|-------------------------------------------------------------------
B|-------------------------------------------------------------------
G|------------------------------2p1--2--3--2p0-----------------------
D|----------------------------------------------3--2--0--3--2--3--0--
A|-----3-----3-------3-----3-----------------------------------------
E|--2-----2-------2-----2--------------------------------------------
http://www.guitartabcreator.com
Guitar Tab Creator is intended to store guitar tab created through the tool. It currently does not support in-line text editing. Any text you place in here will be lost. If you need to comment on your tab, please use the "Tab Notes" section located below.