Lazy River Road

(/) Slide Up  (\) Slide Down  (h) Hammer On  (p) Pull Off  (b) Bend (r) Release (v) Vibrato


E|----------------------------------------
B|--------0--0-------------------3--------
G|-----0--------2p0-----2--2--2-----4--2--
D|-----0-------------2--------------------
A|----------------------------------------
E|--0-------------------------------------



E|-------------------5----------5--
B|--3-5--3--2--1-----0----3--1--0--
G|-------------------0-------------
D|--3/5--4--2--1-----0----4--1-----
A|---------------------------------
E|----------------0-------------0--
http://www.guitartabcreator.com
Guitar Tab Creator is intended to store guitar tab created through the tool. It currently does not support in-line text editing. Any text you place in here will be lost. If you need to comment on your tab, please use the "Tab Notes" section located below.