Lazy Lightning

(/) Slide Up  (\) Slide Down  (h) Hammer On  (p) Pull Off  (b) Bend (r) Release (v) Vibrato


E|--9--------9--9-------------12--14--14--
B|--------8--------8-------8--------------
G|-----9----------------9-----------------
D|----------------------------------------
A|----------------------------------------
E|----------------------------------------



E|--2-------------------------
B|--0----------------------1--
G|--0-------------0--0--2-----
D|--2--2--3----3--------------
A|--0-------------------------
E|----------------------------



E|--------------------------------------------------
B|-----------------------------------------------5--
G|-------------2-----2--5---------------2-----2-----
D|-------3--------5---------------3--------5--------
A|--1/3-----3----------------1/3-----3--------------
E|--------------------------------------------------
http://www.guitartabcreator.com
Guitar Tab Creator is intended to store guitar tab created through the tool. It currently does not support in-line text editing. Any text you place in here will be lost. If you need to comment on your tab, please use the "Tab Notes" section located below.