Lady With A Fan (Part 2)

(/) Slide Up  (\) Slide Down  (h) Hammer On  (p) Pull Off  (b) Bend (r) Release (v) Vibrato


E|--------------------------14----16/17--14------------------------------------------15--14--
B|--13--12------12--13--15-------------------13------15--12--------------12--13--15----------
G|----------14-----------------------------------14----------14--12--------------------------
D|-------------------------------------------------------------------14----------------------
A|-------------------------------------------------------------------------------------------
E|-------------------------------------------------------------------------------------------



E|-----------------------------------------------------------------17------------------19--17--
B|--12--13--15--12--13--15--12--12--13--15--12--13--15--12--15/17------17--15--17--17----------
G|---------------------------------------------------------------------------------------------
D|---------------------------------------------------------------------------------------------
A|---------------------------------------------------------------------------------------------
E|---------------------------------------------------------------------------------------------



E|--------------17--19--20--17--20--19--17----------17------------------14--12--------------
B|--17--16--17------------------------------17--16------17--11--12--13----------10----------
G|----------------------------------------------------------------------------------12--10--
D|------------------------------------------------------------------------------------------
A|------------------------------------------------------------------------------------------
E|------------------------------------------------------------------------------------------



E|----------------------
B|----------17--15------
G|--15--17--------------
D|------------------15--
A|----------------------
E|----------------------
http://www.guitartabcreator.com
Guitar Tab Creator is intended to store guitar tab created through the tool. It currently does not support in-line text editing. Any text you place in here will be lost. If you need to comment on your tab, please use the "Tab Notes" section located below.