Lady With A Fan (Part 1)

(/) Slide Up  (\) Slide Down  (h) Hammer On  (p) Pull Off  (b) Bend (r) Release (v) Vibrato


E|-------------14--12--10--10--10--10--9---10-------------------------------
B|---------10----------10--10--10--10--10--10-----------------10--8---------
G|---------------------10--10--10--10--10--10-------------10---------9--10--
D|--10/12------------------------------------------7--10--------------------
A|--------------------------------------------------------------------------
E|--------------------------------------------------------------------------



E|--12----------12--14--15----19--10--14--12----------12----------------------------------
B|------12--13--------------------------------13--12------13----9h10--12--10------10------
G|----------------------------------------------------------------------------12------12--
D|----------------------------------------------------------------------------------------
A|----------------------------------------------------------------------------------------
E|----------------------------------------------------------------------------------------



E|----------------------------------------------------------15--19--19--17--15--14--15--12--
B|-----------10--12--10-----------------------------10--13----------------------------------
G|--8/9--12--------------12----8/9--12--9--12--9--------------------------------------------
D|------------------------------------------------------------------------------------------
A|------------------------------------------------------------------------------------------
E|------------------------------------------------------------------------------------------



E|----------------------12--------12--14--15--15--17--14--12------12----------12------
B|--13--12--10--12--13--------13------------------------------13------13--12------12--
G|------------------------------------------------------------------------------------
D|------------------------------------------------------------------------------------
A|------------------------------------------------------------------------------------
E|------------------------------------------------------------------------------------



E|-------------------------------------------15--14------14--15--17--19--15--14------14--15--17-----
B|--9h10--12--10------10---------------10------------15--------------------------15-----------------
G|----------------12------12--8/9--12---------------------------------------------------------------
D|--------------------------------------------------------------------------------------------------
A|--------------------------------------------------------------------------------------------------
E|--------------------------------------------------------------------------------------------------
http://www.guitartabcreator.com
Guitar Tab Creator is intended to store guitar tab created through the tool. It currently does not support in-line text editing. Any text you place in here will be lost. If you need to comment on your tab, please use the "Tab Notes" section located below.