Jack-A-Roe

(/) Slide Up  (\) Slide Down  (h) Hammer On  (p) Pull Off  (b) Bend (r) Release (v) Vibrato


E|-----------------------------------------------------2-----2-----2--
B|-----------------------------------------------------1-----1-----1--
G|-----------------------------------2-----------------2-----2-----2--
D|--2--2--2--2--2--2--2--2--2--1--2-----2--0--3--2-----2-----2-----2--
A|--------------------------------------------------------5-----------
E|--------------------------------------------------2--2-----2--2--2--



E|-----------------2-----2-----2--2--
B|-----------------1-----1-----1-----
G|-----------------2-----2-----2-----
D|--2--0-----------2-----2-----2-----
A|--------1--0--------5--------------
E|--------------2--2-----2--2--2-----
http://www.guitartabcreator.com
Guitar Tab Creator is intended to store guitar tab created through the tool. It currently does not support in-line text editing. Any text you place in here will be lost. If you need to comment on your tab, please use the "Tab Notes" section located below.