I've Been all Around This World

(/) Slide Up  (\) Slide Down  (h) Hammer On  (p) Pull Off  (b) Bend (r) Release (v) Vibrato


E|------------------------------------------------2-----2-----2-----2--
B|------------------------------------------------1-----1-----1-----1--
G|----------0--2--0---------------0--2p0----------0-----0-----0-----0--
D|-----0h2-----------2h0-----0h2----------0h2-----2-----2-----2-----2--
A|--1---------------------1--------------------1-----------1-----------
E|---------------------------------------------------0-----------0-----



E|--------2-------------------------------------------
B|--1--3-----3--1h3--1----------1-------1--3p1--------
G|----------------------2--0h2-----0h2----------2--0--
D|----------------------------------------------------
A|----------------------------------------------------
E|----------------------------------------------------



E|--------------------------------------------------
B|-------------------1-----1-------------1----------
G|--0h2--0--2--0--2-----2-----2-------0-----2p0-----
D|-------------------------------0h2-------------2--
A|--------------------------------------------------
E|--------------------------------------------------



E|---------------------------------------------------
B|---------------------------------------------------
G|-------------------0-------------------------------
D|--------------0h2-----2p0--------------------------
A|--------0--1---------------1-----0--1-----0--1-----
E|--0--2------------------------2--------0-----------
http://www.guitartabcreator.com
Guitar Tab Creator is intended to store guitar tab created through the tool. It currently does not support in-line text editing. Any text you place in here will be lost. If you need to comment on your tab, please use the "Tab Notes" section located below.