It Must Have Been The Roses

(/) Slide Up  (\) Slide Down  (h) Hammer On  (p) Pull Off  (b) Bend (r) Release (v) Vibrato


E|-------------------------------------------------------
B|-------------------------------------------------------
G|--------2-----4--4/6--6--4--6--6/7--6--4h6p4--1-----2--
D|--2--2-----2-------------------------------------2-----
A|-------------------------------------------------------
E|-------------------------------------------------------



E|-------------------
B|-------------------
G|-------------------
D|--2/4--2-----------
A|----------2--0-----
E|----------------2--
http://www.guitartabcreator.com
Guitar Tab Creator is intended to store guitar tab created through the tool. It currently does not support in-line text editing. Any text you place in here will be lost. If you need to comment on your tab, please use the "Tab Notes" section located below.