Iko Iko

(/) Slide Up  (\) Slide Down  (h) Hammer On  (p) Pull Off  (b) Bend (r) Release (v) Vibrato


E|----------------------------------------------------
B|----------------------------------------------------
G|-------7--7-------7--7---------7--7--7--7-----------
D|--7h9--------7h9--------9------------------10p9--7--
A|----------------------------------------------------
E|----------------------------------------------------



E|-----------------------------------------------------------
B|-----------------------------------------------------------
G|-----------------------------------------------------------
D|-----5--5-----7--7-----5--5--7---------5--5--5--7--5p4-----
A|--5--------5--------5---------------5-------------------3--
E|-----------------------------------------------------------
http://www.guitartabcreator.com
Guitar Tab Creator is intended to store guitar tab created through the tool. It currently does not support in-line text editing. Any text you place in here will be lost. If you need to comment on your tab, please use the "Tab Notes" section located below.