Hell in a Bucket

(/) Slide Up  (\) Slide Down  (h) Hammer On  (p) Pull Off  (b) Bend (r) Release (v) Vibrato


E|---------------9------2-2----2-2--4--
B|--7-10--9---8--7------1-2----1-2--4--
G|--8/11--10--9--8------1-2----1-2--4--
D|----------------------1-2----1-2--4--
A|----------------------------------0--
E|----------------------2/2----2/2-----



E|----------------9----2----2-----------------------------------------------------------------------
B|--9-----8----7-------0----2----3p2----------------------------------------------------------------
G|--10----9----8-------1----2---------2--4------2--2\1--2--3--3/4---------------4--2--1----------4--
D|---------------------2----2------------------------------------------0--1--4-----------4--0h1-----
A|---------------------0----------------------------------------------------------------------------
E|--------------------------2-----------------------------------------------------------------------



E|--
B|--
G|--
D|--
A|--
E|--
http://www.guitartabcreator.com
Guitar Tab Creator is intended to store guitar tab created through the tool. It currently does not support in-line text editing. Any text you place in here will be lost. If you need to comment on your tab, please use the "Tab Notes" section located below.