Hard to Handle

(/) Slide Up  (\) Slide Down  (h) Hammer On  (p) Pull Off  (b) Bend (r) Release (v) Vibrato


E|---------------------------------------------9--------------
B|-------------9----------------------------9-----------------
G|-------7--9-----9--9p7--------------7--9--------------------
D|--7/9-------------------7------7/9------------------9--9p7--
A|------------------------------------------------------------
E|------------------------------------------------------------



E|-----9--9--9-----------------
B|-----7--7--7--9/10--9--7-----
G|--------------------------8--
D|-----------------------------
A|-----------------------------
E|--4--------------------------



E|------16--14------14--14--14----------
B|--12----------15--------------15--12--
G|--------------------------------------
D|--------------------------------------
A|--------------------------------------
E|--------------------------------------
http://www.guitartabcreator.com
Guitar Tab Creator is intended to store guitar tab created through the tool. It currently does not support in-line text editing. Any text you place in here will be lost. If you need to comment on your tab, please use the "Tab Notes" section located below.