Good Mornin' Little School Girl

(/) Slide Up  (\) Slide Down  (h) Hammer On  (p) Pull Off  (b) Bend (r) Release (v) Vibrato


E|------------------------------
B|------------------------------
G|------------------------------
D|--7----5h7--5-----------------
A|---------------5--3-----------
E|---------------------2--5--2--



E|--------------------------------------------------------
B|--------------------------------------------------------
G|--9--7h9--7-----7-----7--9----7--5h7--5-----5-----5--7--
D|-------------9-----9---------------------7-----7--------
A|--------------------------------------------------------
E|--------------------------------------------------------



E|---------------------------
B|---------------------------
G|---------------------------
D|--7----5h7-----------------
A|------------5--3-----------
E|------------------2--5--2--
http://www.guitartabcreator.com
Guitar Tab Creator is intended to store guitar tab created through the tool. It currently does not support in-line text editing. Any text you place in here will be lost. If you need to comment on your tab, please use the "Tab Notes" section located below.