Friend of the Devil (Jerry Fast)

(/) Slide Up  (\) Slide Down  (h) Hammer On  (p) Pull Off  (b) Bend (r) Release (v) Vibrato


E|------------------------------------------------------------------------
B|------------------------------------------------------------------------
G|---------0--0h1--0---------0--2h4--4p2--0---------2p0--0--0--0h2--0--0--
D|--0h1h2---------------0h4------------------0h1h2------------------------
A|------------------------------------------------------------------------
E|------------------------------------------------------------------------



E|--------------------------------------------------
B|-------------0h1h3--3h5--3-------------2p0-----0--
G|--0--0--4p0-----------------5--5--1/2-------2-----
D|--------------------------------------------------
A|--------------------------------------------------
E|--------------------------------------------------



E|--------------------2-------------------
B|-------------0h1h3-----3--1--1--1-------
G|--0--0--4p0------------------------2p0--
D|----------------------------------------
A|----------------------------------------
E|----------------------------------------
http://www.guitartabcreator.com
Guitar Tab Creator is intended to store guitar tab created through the tool. It currently does not support in-line text editing. Any text you place in here will be lost. If you need to comment on your tab, please use the "Tab Notes" section located below.