Friend of The Devil (Intros)

(/) Slide Up  (\) Slide Down  (h) Hammer On  (p) Pull Off  (b) Bend (r) Release (v) Vibrato


E|--------5-----------------------------------
B|--------------------------------------------
G|--------------------------------------------
D|-----5-----4-----2--2-----------------------
A|--3-----------3--------3--------------------
E|--------------------------2--5--2--4--2--0--



E|--------------------------
B|--------------------------
G|--0-----------------------
D|-----4--2--0--------------
A|--------------------------
E|--------------5--4--2--0--
http://www.guitartabcreator.com
Guitar Tab Creator is intended to store guitar tab created through the tool. It currently does not support in-line text editing. Any text you place in here will be lost. If you need to comment on your tab, please use the "Tab Notes" section located below.