Feel Like a Stranger

(/) Slide Up  (\) Slide Down  (h) Hammer On  (p) Pull Off  (b) Bend (r) Release (v) Vibrato


E|---------------------------------------------------------------
B|---------------------------------------------------------------
G|-----------------------------------------4---------------------
D|---------7--5-----------------------5h7-----7p5----------5-----
A|---------------5--3--------------5---------------5--3h5--------
E|--2------------------5--2-----------------------------------2--



E|-------------------------------------------------------
B|-------------------------------------------------------
G|-------------------------------------------------------
D|--5--7--5--7--5--7--5--7--5--7--5--4-------------------
A|--------------------------------------5----------------
E|-----------------------------------------2----2--0--2--
http://www.guitartabcreator.com
Guitar Tab Creator is intended to store guitar tab created through the tool. It currently does not support in-line text editing. Any text you place in here will be lost. If you need to comment on your tab, please use the "Tab Notes" section located below.