Dire Wolf

(/) Slide Up  (\) Slide Down  (h) Hammer On  (p) Pull Off  (b) Bend (r) Release (v) Vibrato


E|-----------------0-------5----7--5-----7-----------
B|--1--1--0--------0------------------5-----5--3-----
G|-----------------0--0/4-------------------------5--
D|-----------2--0--0---------------------------------
A|-----------------0---------------------------------
E|-----------------0---------------------------------



E|-----------------------------------------
B|-----------------------------------------
G|--2--0-------0---------------------------
D|--------1/2-----2p0----------------------
A|---------------------1----1--1--0--------
E|-----------------------------------2--0--



E|-------------------------------2--
B|----------------------0--1--0--1--
G|-----------0----0--2-----------0--
D|--0--2--3----------------------2--
A|-------------------------------1--
E|-------------------------------0--
http://www.guitartabcreator.com
Guitar Tab Creator is intended to store guitar tab created through the tool. It currently does not support in-line text editing. Any text you place in here will be lost. If you need to comment on your tab, please use the "Tab Notes" section located below.