Dear Prudence

(/) Slide Up  (\) Slide Down  (h) Hammer On  (p) Pull Off  (b) Bend (r) Release (v) Vibrato


E|------14------12------10-----9--
B|--10------10------10------8-----
G|--------------------------------
D|--------------------------------
A|--------------------------------
E|--------------------------------



E|-----7-----5-----5-----4-----4-----4-----4--
B|--7-----5-----5-----3--3--3--1--3--3--3--3--
G|-----------------------2-----2-----4-----3--
D|-----------------------0-----0-----0-----0--
A|--------------------------------------------
E|--------------------------------------------
http://www.guitartabcreator.com
Guitar Tab Creator is intended to store guitar tab created through the tool. It currently does not support in-line text editing. Any text you place in here will be lost. If you need to comment on your tab, please use the "Tab Notes" section located below.