Dark Star (Verse)

(/) Slide Up  (\) Slide Down  (h) Hammer On  (p) Pull Off  (b) Bend (r) Release (v) Vibrato


E|----------------------------------------
B|--3/5--5\3--2h3--2----------------------
G|--------------------2h4--2--0--2--0-----
D|-------------------------------------2--
A|----------------------------------------
E|----------------------------------------



E|-----------------------------2--
B|--2--3--5--3--2--3--2--0-----0--
G|--------------------------0--0--
D|--2--4--5--4--2--4--2--0-----2--
A|-----------------------------0--
E|--------------------------------
http://www.guitartabcreator.com
Guitar Tab Creator is intended to store guitar tab created through the tool. It currently does not support in-line text editing. Any text you place in here will be lost. If you need to comment on your tab, please use the "Tab Notes" section located below.