Dark Star (Intro)

(/) Slide Up  (\) Slide Down  (h) Hammer On  (p) Pull Off  (b) Bend (r) Release (v) Vibrato

E|--------------------------------------------------------------
B|--------------------------------------------------------------
G|----------7------------7--------------------------------------
D|--9p8--9-------9p8--9-------5h7--5--7--5----------5-----5--7--
A|------------------------------------------5--3h5-----5--------
E|--------------------------------------------------------------



E|-------4--5--7---------4--5--7--7/9--7--
B|--3h5-------------3h5-------------------
G|----------------------------------------
D|----------------------------------------
A|----------------------------------------
E|----------------------------------------



E|-----7--5--7p5----------------7--5--7p5--9--7--5--
B|-----5----------5--3----------5-------------------
G|----------------------5----2----------------------
D|--------------------------------------------------
A|--------------------------------------------------
E|--2-----------------------------------------------
http://www.guitartabcreator.com
Guitar Tab Creator is intended to store guitar tab created through the tool. It currently does not support in-line text editing. Any text you place in here will be lost. If you need to comment on your tab, please use the "Tab Notes" section located below.