Dancin' In The Streets

(/) Slide Up  (\) Slide Down  (h) Hammer On  (p) Pull Off  (b) Bend (r) Release (v) Vibrato


E|--------------------
B|--------------------
G|-----------4--------
D|--7--7--5-----7-----
A|-----------------5--
E|--------------------



E|----------------------------
B|----------------------------
G|--------4-------------------
D|--7--5-----7----5--4--------
A|----------------------5--3--
E|----------------------------



E|--------------------------------------
B|--------------------------------------
G|--------------------------------------
D|-----7--------------------4--4-----7--
A|--------2--2--3--3--5--5--------------
E|--2-----------------------------2-----
http://www.guitartabcreator.com
Guitar Tab Creator is intended to store guitar tab created through the tool. It currently does not support in-line text editing. Any text you place in here will be lost. If you need to comment on your tab, please use the "Tab Notes" section located below.