Cumberland Blues (Jerry)

(/) Slide Up  (\) Slide Down  (h) Hammer On  (p) Pull Off  (b) Bend (r) Release (v) Vibrato


E|------------------------------------
B|------------------------------------
G|--7p5-------------------------------
D|-------8--5----------3--3-----3--5--
A|-------------1h3--3--------3--------
E|------------------------------------



E|-----------------------------------
B|-----------------------------------
G|-----------------------------------
D|--------0--------0-----0-----------
A|-----0--------0-----0-----0--------
E|--2--------2-----------------2--0--



E|--------------------------
B|--------------------------
G|--------------------------
D|--3-----3--------3--------
A|-----3-----3--1-----3-----
E|-----------------------0--
http://www.guitartabcreator.com
Guitar Tab Creator is intended to store guitar tab created through the tool. It currently does not support in-line text editing. Any text you place in here will be lost. If you need to comment on your tab, please use the "Tab Notes" section located below.