China Doll (Intro & Bo7 Chord)

(/) Slide Up  (\) Slide Down  (h) Hammer On  (p) Pull Off  (b) Bend (r) Release (v) Vibrato

E|--2h3p2-----------------------------3-----------3-----3-----3--
B|---------3-----------------------------3-----3-----3-----3--3--
G|------------2-----2-----------------------2-----------------2--
D|---------------3-----2h3p2-----0----------------------------0--
A|----------------------------1----------------------------------
E|---------------------------------------------------------------



E|-----------3--3--
B|--------3-----3--
G|-----1--------1--
D|-----------------
A|--0-----------0--
E|-----------------



E|--2-----------------------
B|--1--------------------2--
G|--0--------------------0--
D|--2--------------------2--
A|--1----------0h1p0--------
E|--------------------0--2--



E|--5--4--2--------------4-----------
B|-----------3--0--------3-----------
G|-----------------2--0--2--0--------
D|-----------------------0-----4--0--
A|-----------------------------------
E|--0--------------------------------
http://www.guitartabcreator.com
Guitar Tab Creator is intended to store guitar tab created through the tool. It currently does not support in-line text editing. Any text you place in here will be lost. If you need to comment on your tab, please use the "Tab Notes" section located below.