China Cat Sunflower (Verse Ending)

(/) Slide Up  (\) Slide Down  (h) Hammer On  (p) Pull Off  (b) Bend (r) Release (v) Vibrato


E|--7h9--7------------7--9----9--9--9--9h10p9-----------------9--7-----7--------
B|----------8----5/8---------------------------10--8----5--8--------8-----8--5--
G|------------------------------------------------------------------------------
D|------------------------------------------------------------------------------
A|------------------------------------------------------------------------------
E|------------------------------------------------------------------------------



E|------------------------------9--10p9---------------------
B|----------7----7h8--10----10-----------10--8--10p8--7-----
G|--7--7h9-----------------------------------------------9--
D|----------------------------------------------------------
A|----------------------------------------------------------
E|----------------------------------------------------------



E|------------------------------9--10p9------10--12--
B|----------7----7h8--10----10-----------10--8---10--
G|--7--7h9-----------------------------------9---11--
D|-------------------------------------------10--12--
A|-------------------------------------------8---10--
E|-------------------------------------------5---7---
http://www.guitartabcreator.com
Guitar Tab Creator is intended to store guitar tab created through the tool. It currently does not support in-line text editing. Any text you place in here will be lost. If you need to comment on your tab, please use the "Tab Notes" section located below.