China Cat Sunflower (Intro)

(/) Slide Up  (\) Slide Down  (h) Hammer On  (p) Pull Off  (b) Bend (r) Release (v) Vibrato


E|-----------------------------------------
B|-----------------------------------------
G|-----------------------------------------
D|-----5-------3--5-----5-------5-------5--
A|--------1/3--------------1/3-----1/3-----
E|--0----------------0---------------------



E|-----------------------------------------------------12--14--15--17--19--21----------------
B|--12--13p12------------12h13--15--15--12--13p12------------------------------12--13p12-----
G|-------------14--12------------------------------14----------------------------------------
D|-------------------------------------------------------------------------------------------
A|-------------------------------------------------------------------------------------------
E|-------------------------------------------------------------------------------------------



E|--------------------------------------------12--14--15--17--19--17--
B|------------12h13--15--15--12--13p12--------------------------------
G|--14--12------------------------------14----------------------------
D|--------------------------------------------------------------------
A|--------------------------------------------------------------------
E|--------------------------------------------------------------------
http://www.guitartabcreator.com
Guitar Tab Creator is intended to store guitar tab created through the tool. It currently does not support in-line text editing. Any text you place in here will be lost. If you need to comment on your tab, please use the "Tab Notes" section located below.