China Cat Sunflower (Bridge Solo)

(/) Slide Up  (\) Slide Down  (h) Hammer On  (p) Pull Off  (b) Bend (r) Release (v) Vibrato


E|-----------------------------------11--12p11------------------------
B|-----------9------9--10--12----12-------------12--10--12p10--9------
G|--9--9h11-----11------------------------------------------------11--
D|--------------------------------------------------------------------
A|--------------------------------------------------------------------
E|--------------------------------------------------------------------



E|---------------------------------------------
B|----------------10--9------------------------
G|--9--9--11--11---------11--9------9--11------
D|------------------------------12---------10--
A|---------------------------------------------
E|---------------------------------------------



E|----------------------------------------11--12p11----------
B|-----------------------9--10--12----12-------------12--10--
G|--9h11--9----9--9--11--------------------------------------
D|-----------------------------------------------------------
A|-----------------------------------------------------------
E|-----------------------------------------------------------



E|-------------------------------------------------
B|--12--10--9--------------------10--9-------------
G|-------------11--9--9--11--11---------11--9------
D|---------------------------------------------12--
A|-------------------------------------------------
E|-------------------------------------------------
http://www.guitartabcreator.com
Guitar Tab Creator is intended to store guitar tab created through the tool. It currently does not support in-line text editing. Any text you place in here will be lost. If you need to comment on your tab, please use the "Tab Notes" section located below.