Cassidy

(/) Slide Up  (\) Slide Down  (h) Hammer On  (p) Pull Off  (b) Bend (r) Release (v) Vibrato


E|-----------------------------------------------------------------
B|-----------------------------------------------------------------
G|-----9----9--7--6-----7--6----------9----9--7--6-----7--6--------
D|--2----------------9--------9--7------------------9--------9--7--
A|-----------------------------------------------------------------
E|-----------------------------------------------------------------



E|----------------------------------------------
B|--9----9--7-----8--10----9----9--7-----8--10--
G|-------------9----------------------9---------
D|----------------------------------------------
A|----------------------------------------------
E|----------------------------------------------



E|--------------------------
B|--------------------------
G|--9/11--14--13p11--9--11--
D|--------------------------
A|--------------------------
E|--------------------------
http://www.guitartabcreator.com
Guitar Tab Creator is intended to store guitar tab created through the tool. It currently does not support in-line text editing. Any text you place in here will be lost. If you need to comment on your tab, please use the "Tab Notes" section located below.