Casey Jones

(/) Slide Up  (\) Slide Down  (h) Hammer On  (p) Pull Off  (b) Bend (r) Release (v) Vibrato


E|-------------------------------------
B|--8/10--8----------------------------
G|-----------7/9--7-------------7------
D|-------------------10--7--10-----10--
A|-------------------------------------
E|-------------------------------------



E|--2-------------------------------------------9--10--9--9--
B|--1-------------------------------------------8--8---8--8--
G|--0--------------------4--7--4-----10-----10--7--9---9--9--
D|--2--------2--5--4--7-----------7------7-------------------
A|--1--0--3--------------------------------------------------
E|--0--------------------------------------------------------



E|--2-----------------------------
B|--1-----------------------------
G|--0--------------------4--7--4--
D|--2--------2--5--4--7-----------
A|--0--0--2-----------------------
E|--0-----------------------------



E|-----3-----------2-----------------------3--
B|--------1-----------0--------1--3--1--0--0--
G|--3--------2-----------1-----2-----------0--
D|--------------3-----------2--2-----------0--
A|-----------------------------------------0--
E|-----------------------------2-----------0--



E|--10--12--13--13/14--10--9--8--10--7\6-----7--10--7--------7-----10--
B|----------------------------------------6------------6--8-----8------
G|---------------------------------------------------------------------
D|---------------------------------------------------------------------
A|---------------------------------------------------------------------
E|---------------------------------------------------------------------
http://www.guitartabcreator.com
Guitar Tab Creator is intended to store guitar tab created through the tool. It currently does not support in-line text editing. Any text you place in here will be lost. If you need to comment on your tab, please use the "Tab Notes" section located below.