Candyman

(/) Slide Up  (\) Slide Down  (h) Hammer On  (p) Pull Off  (b) Bend (r) Release (v) Vibrato


E|---------------------------------------------------
B|-----------11--11---------10--10-------------------
G|----------------------------------------9----------
D|--9/10/11----------10/11----------7--9-----12--10--
A|---------------------------------------------------
E|---------------------------------------------------



E|-------------------------------------------------------
B|-----------11--11---------10--10-----------------------
G|----------------------------------------9--9--9--9--9--
D|--9/10/11----------10/11----------7--9-----------------
A|-------------------------------------------------------
E|-------------------------------------------------------



E|-------------------------------------------------
B|----------12--12--12--10--10---------------------
G|--12--12----------------------12-----------------
D|-------------------------------------------------
A|----------------------------------------------2--
E|----------------------------------0--0--2--2-----
http://www.guitartabcreator.com
Guitar Tab Creator is intended to store guitar tab created through the tool. It currently does not support in-line text editing. Any text you place in here will be lost. If you need to comment on your tab, please use the "Tab Notes" section located below.