Brown Eyed Women

(/) Slide Up  (\) Slide Down  (h) Hammer On  (p) Pull Off  (b) Bend (r) Release (v) Vibrato


E|----------------------------------------------
B|----------------------------------------------
G|-------4--5--6--6----6/8\6--4--4----4h6p4-----
D|--4/6--------------------------------------6--
A|----------------------------------------------
E|----------------------------------------------



E|------------------------------------------------6--
B|------------------------------------------------5--
G|------------------------------0--1--------------6--
D|--4\2--2--2-----2--2----2--4--------------------6--
A|-------------2----------------------0--0--1--1--4--
E|---------------------------------------------------
http://www.guitartabcreator.com
Guitar Tab Creator is intended to store guitar tab created through the tool. It currently does not support in-line text editing. Any text you place in here will be lost. If you need to comment on your tab, please use the "Tab Notes" section located below.