Bird Song

(/) Slide Up  (\) Slide Down  (h) Hammer On  (p) Pull Off  (b) Bend (r) Release (v) Vibrato


E|-------------------------------4--
B|----------------------------------
G|----------------------0-----------
D|----------2--0-----0-----2--------
A|-----0h1--------1-----------1-----
E|--2-------------------------------



E|----------------5--4-----
B|----------------------5--
G|-------------------------
D|-------------0-----------
A|-------1-----------------
E|--0/2-----2--------------



E|-------------------------
B|-------------------------
G|-------------------------
D|-------------0-----------
A|-------1--------1--0-----
E|--0/2-----2-----------2--
http://www.guitartabcreator.com
Guitar Tab Creator is intended to store guitar tab created through the tool. It currently does not support in-line text editing. Any text you place in here will be lost. If you need to comment on your tab, please use the "Tab Notes" section located below.