Big Railroad Blues

(/) Slide Up  (\) Slide Down  (h) Hammer On  (p) Pull Off  (b) Bend (r) Release (v) Vibrato


E|-----------------------------------------
B|-----------------------------------------
G|--2--2-----------2--2--0-----------------
D|--2--2--2--4--4--2--2-----4--2--2-----2--
A|-----------------------------------2-----
E|-----------2--2--------------------------



E|----------------------------------------
B|----------------------------------------
G|-------------------2--2-----------------
D|--2-------2--2--4--2--2--4--2--2-----2--
A|-----1h2--------------------------2-----
E|--2-------------------------------------



E|---------------------
B|--5/7--5-------------
G|----------6\4--2--2--
D|---------------------
A|---------------------
E|---------------------
http://www.guitartabcreator.com
Guitar Tab Creator is intended to store guitar tab created through the tool. It currently does not support in-line text editing. Any text you place in here will be lost. If you need to comment on your tab, please use the "Tab Notes" section located below.