Big Boss Man

(/) Slide Up  (\) Slide Down  (h) Hammer On  (p) Pull Off  (b) Bend (r) Release (v) Vibrato


E|---------------------------
B|-------9----------9--------
G|---------------------------
D|--8/9-----9--8/9-----9--7--
A|---------------------------
E|---------------------------



E|----------------------------------------
B|-------9--------9-----------------------
G|----------------------9--6-----7--------
D|--8/9-----9--9-----9--------7-----7--5--
A|----------------------------------------
E|----------------------------------------



E|---------------------------------
B|---------------------------------
G|---------------------------------
D|--------------7b--5--------------
A|-----------3------------------3--
E|--2--3--4------------2--3--4-----
http://www.guitartabcreator.com
Guitar Tab Creator is intended to store guitar tab created through the tool. It currently does not support in-line text editing. Any text you place in here will be lost. If you need to comment on your tab, please use the "Tab Notes" section located below.