Alligator

(/) Slide Up  (\) Slide Down  (h) Hammer On  (p) Pull Off  (b) Bend (r) Release (v) Vibrato


E|--------14--14--13--12-------------------------------------------
B|--6--9-----------------------------------------------------------
G|-----------------------------------------------------------------
D|------------------------10--10--10--10--10--8--5-----5--8--5-----
A|--------------------------------------------------6--------------
E|-----------------------------------------------------------------



E|-----------------------------------------------
B|--------------------8--10----------------------
G|--------5--7--7--9-----------------------------
D|--5--7---------------------10--10--10--10--10--
A|-----------------------------------------------
E|-----------------------------------------------



E|---------------------------------
B|--10--8--------------------------
G|---------9--7--------------------
D|---------------10--7--10--10--7--
A|---------------------------------
E|---------------------------------



E|--
B|--
G|--
D|--
A|--
E|--
http://www.guitartabcreator.com
Guitar Tab Creator is intended to store guitar tab created through the tool. It currently does not support in-line text editing. Any text you place in here will be lost. If you need to comment on your tab, please use the "Tab Notes" section located below.