something new

(/) Slide Up  (\) Slide Down  (h) Hammer On  (p) Pull Off  (b) Bend (r) Release (v) Vibrato

E|-----3--------5--------7-----3--------4----------|--------------------
B|--4-----------------6-----------4--------4-------|--------------6-----
G|--------5--3-----7--------5--------3--------4p5--|-----------5--------
D|-------------------------------------------------|--------------------
A|-------------------------------------------------|-----6-----------6--
E|-------------------------------------------------|--7-----7-----------



E|-----------------
B|-----3--1-----1--
G|--------------2--
D|--0-----2-----3--
A|--------3--------
E|-----------------
http://www.guitartabcreator.com
Guitar Tab Creator is intended to store guitar tab created through the tool. It currently does not support in-line text editing. Any text you place in here will be lost. If you need to comment on your tab, please use the "Tab Notes" section located below.