blues in G #1

(/) Slide Up  (\) Slide Down  (h) Hammer On  (p) Pull Off  (b) Bend (r) Release (v) Vibrato

Stave 1:

E|--3--6--3--------3-----------------------3--6--3--------3--3--5--6--9--10-----
B|-----------3--6-----1--2--1-----------------------3--6---------------------8--
G|-----------------------------3--0--3--0---------------------------------------
D|------------------------------------------------------------------------------
A|------------------------------------------------------------------------------
E|------------------------------------------------------------------------------

Stave 2:

E|--3--6--3--------3-----------------------3--6--3--------3--3--5--6--9--10--------
B|-----------3--6-----1--2--1-----------------------3--6---------------------8-----
G|-----------------------------3--0--3--0------------------------------------------
D|---------------------------------------------------------------------------------
A|---------------------------------------------------------------------------------
E|---------------------------------------------------------------------------------

Stave 3:

E|-----------------------------------------------------------------------5\
B|-----3--5--3--------------3--------------------------------------3--7----
G|-----------------------5-----5-------------------------------------------
D|-------------------------------------------------------------------------
A|--5-----------5--4--3-----------------------------3--3--4--4--5----------
E|--------------------------------6--5--3--3--6--6-------------------------

http://www.guitartabcreator.com
Guitar Tab Creator is intended to store guitar tab created through the tool. It currently does not support in-line text editing. Any text you place in here will be lost. If you need to comment on your tab, please use the "Tab Notes" section located below.