In Christ Alone - owl city (melody)

(/) Slide Up  (\) Slide Down  (h) Hammer On  (p) Pull Off  (b) Bend (r) Release (v) Vibrato


E|------------------------------------------------------------------
B|------------------------------------------------------------------
G|----------------------------------12--------------12--------------
D|----------13--13----------13--15------15--13----------15--13--13-- x2
A|--13--15----------13--15----------------------15------------------
E|------------------------------------------------------------------



E|------------------------------------------------------------------
B|--------------13--13------------------16--------------------------
G|------12--15----------15--12--------------17--15--17--15--12------
D|--13--------------------------15--15--------------------------15--
A|------------------------------------------------------------------
E|------------------------------------------------------------------



E|------------------------------------------------------------------
B|------------------------------------------------------------------
G|----------------------------------12--------------12--------------
D|----------13--13----------13--15------15--13----------15--13--13--
A|--13--15----------13--15----------------------15------------------
E|------------------------------------------------------------------



E|------------------------------------------------------------------
B|------------------------------------------------------------------
G|----------------------------------14--------------14--------------
D|----------15--15----------15--17------17--15----------17--15--15-- x2
A|--15--17----------15--17----------------------17------------------
E|------------------------------------------------------------------



E|------------------------------------------------------------------
B|--------------15--15------------------18--------------------------
G|------14--17----------17--14--------------19--17--19--17--14------
D|--15--------------------------17--17--------------------------17--
A|------------------------------------------------------------------
E|------------------------------------------------------------------



E|------------------------------------------------------------------
B|------------------------------------------------------------------
G|----------------------------------14--------------14--------------
D|----------15--15----------15--17------17--15----------17--15--15--
A|--15--17----------15--17----------------------17------------------
E|------------------------------------------------------------------



E|------------------------------------------------------------------
B|------------------------------------------------------------------
G|----------------------------------16--------------16--------------
D|----------17--17----------17--19------19--17----------19--17--17-- x2
A|--17--19----------17--19----------------------19------------------
E|------------------------------------------------------------------



E|------------------------------------------------------------------
B|--------------17--17------------------20--------------------------
G|------16--19----------19--16--------------21--19--21--19--16------
D|--17--------------------------19--19--------------------------19--
A|------------------------------------------------------------------
E|------------------------------------------------------------------



E|------------------------------------------------------------------
B|------------------------------------------------------------------
G|----------------------------------16--------------16--------------
D|----------17--17----------17--19------19--17----------19--17--17--
A|--17--19----------17--19----------------------19------------------
E|------------------------------------------------------------------


Guitar Tab Creator is intended to store guitar tab created through the tool. It currently does not support in-line text editing. Any text you place in here will be lost. If you need to comment on your tab, please use the "Tab Notes" section located below.