Am pentatonic blues scale. +2 Dm pent scale, + 3 Em pent scale

(/) Slide Up  (\) Slide Down  (h) Hammer On  (p) Pull Off  (b) Bend (r) Release (v) Vibrato

Stave 1:

E|--------------------------------5--8--
B|--------------------------5--8--------
G|--------------------5--7--------------
D|--------------5--7--------------------
A|--------5--7--------------------------
E|--5--8--------------------------------

Stave 2:

E|--------------------------5--8--
B|--------------------6--8--------
G|--------------5--7--------------
D|--------5--7--------------------
A|--5--8--------------------------
E|--------------------------------

Stave 3:

E|----------------------------7--10--
B|---------------------8--10---------
G|---------------7--9----------------
D|---------7--9----------------------
A|--7--10----------------------------
E|-----------------------------------

http://www.guitartabcreator.com
Guitar Tab Creator is intended to store guitar tab created through the tool. It currently does not support in-line text editing. Any text you place in here will be lost. If you need to comment on your tab, please use the "Tab Notes" section located below.