a song about alana champion that i have no name for

(/) Slide Up  (\) Slide Down  (h) Hammer On  (p) Pull Off  (b) Bend (r) Release (v) Vibrato


E|---------------------------------------------------------------------------------------------------
B|---------------------------------------------------------------------------------------------------
G|-----6-----6---------6-----6---------5-----5---------5-----5---------2-----2---------2-----2-------
D|---7-----7-----7---7-----7-----7---6-----6-----6---6-----6-----6---4-----4-----4---4-----4-----4---
A|---------------------------------------------------------------------------------------------------
E|-5-----5-----5---5-----5-----5---4-----4-----4---4-----4-----4---2-----2-----2---2-----2-----2-----



E|-----------------------------
B|-----0-----0---------0-----0-
G|---2-----2-----2---2-----2---
D|-----------------------------
A|-----------------------------
E|-0-----0-----0---0-----0-----



E|-
B|-
G|-
D|-
A|-
E|-
http://www.guitartabcreator.com
Guitar Tab Creator is intended to store guitar tab created through the tool. It currently does not support in-line text editing. Any text you place in here will be lost. If you need to comment on your tab, please use the "Tab Notes" section located below.