Idk.

(/) Slide Up  (\) Slide Down  (h) Hammer On  (p) Pull Off  (b) Bend (r) Release (v) Vibrato
E|--------5-----------5-----------5-----------5-----------5-----------5-----------5-----
B|-----6-----6-----6-----6-----6-----6-----5-----5-----6-----6-----6-----6-----6-----6--
G|--7-----------5-----------3-----------------------7-----------5-----------3-----------
D|--------------------------------------7-----------------------------------------------
A|--------------------------------------------------------------------------------------
E|--------------------------------------------------------------------------------------



E|--5--5--
B|--6--5--
G|--5--5--
D|--7--7--
A|--8--8--
E|--------



E|--------5-----------5-----------5--------5-----------5-----------5-----------5-----5--5--
B|-----6-----6-----6-----6-----6--------5-----5-----6-----6-----6-----6-----6-----6--5--5--
G|--7-----------5-----------3--------0-----------7-----------5-----------3-----------0--0--
D|--0-----------0-----------0--------7-----------0-----------0-----------0-----------7--7--
A|--8-----------8-----------5--------8-----------8-----------8-----------5-----------8--7--
E|-----------------------------------------------------------------------------------------



E|--5--
B|--5--
G|-----
D|-----
A|-----
E|-----
http://www.guitartabcreator.com
Guitar Tab Creator is intended to store guitar tab created through the tool. It currently does not support in-line text editing. Any text you place in here will be lost. If you need to comment on your tab, please use the "Tab Notes" section located below.