West

(/) Slide Up  (\) Slide Down  (h) Hammer On  (p) Pull Off  (b) Bend (r) Release (v) Vibrato


E|-------------0--0-0--0-0-|-------------0--0-0--0-0-|-
B|-0-0h1-0-----1--1-1--1-1-|-0-0h1-0-----0--0-0--0-0-|-
G|---------2-0-2--2-2--2-2-|---------2-0-1--1-1--1-1-|-
D|-------------2--2-2--2-2-|-------------2--2-2--2-2-|-
A|-------------0--0-0--0-0-|-------------2--2-2--2-2-|-
E|-------------------------|-------------0--0-0--0-0-|-



E|----------------------------------------------------------------------0--0-0--0-|-|-
B|-0-0h1-0--------------------------------------------------0-0h1-0-----1--1-1--1-|-|-
G|---------2-0-2-2/4-4-5-7-9-9-9-9h10-9-7-9v--7-7h9-7-5-7v----------2-0-2--2-2--2-|-|-
D|----------------------------------------------------------------------2--2-2--2-|-|-
A|---------------------3-7-7-7------------------------------------------0--0-0--0-|-|-
E|--------------------------------------------------------------------------------|-|-

Written by Callum Bob Harley
Guitar Tab Creator is intended to store guitar tab created through the tool. It currently does not support in-line text editing. Any text you place in here will be lost. If you need to comment on your tab, please use the "Tab Notes" section located below.