Anybody Out There?

(/) Slide Up  (\) Slide Down  (h) Hammer On  (p) Pull Off  (b) Bend (r) Release (v) Vibrato


E|--0--9--0----0--7--0--|--
B|--0--0--0----5--5--5--|--
G|--6--6--6----6--6--6--|--
D|--7--7--7----6--6--6--|--
A|--7--7--7----0--0--0--|--
E|--0--0--0-------------|--



E|--0--7--0----0--2--0--|--
B|--0--0--0----0--0--0--|--
G|--6--6--6----1--1--1--|--
D|--7--7--7----2--2--2--|--
A|--7--7--7----2--2--2--|--
E|--0--0--0----0--0--0--|--


Written by Callum Bob Harley
Guitar Tab Creator is intended to store guitar tab created through the tool. It currently does not support in-line text editing. Any text you place in here will be lost. If you need to comment on your tab, please use the "Tab Notes" section located below.