We didn't land on the moon

(/) Slide Up  (\) Slide Down  (h) Hammer On  (p) Pull Off  (b) Bend (r) Release (v) Vibrato
E|----------------|------------------|----------------|------------------|----------------|-
B|------10---10-9-|------------------|------10---10-9-|------------------|------10---10-9-|-
G|------13---9--9-|-----9------------|------13---9--9-|-----9---------11-|------13---9--9-|-
D|---11-----------|---7---7/9-----11-|---11-----------|---7---7/9---9----|---11-----------|-
A|-9-------9------|-5-----------9----|-9-------9------|-5---------7------|-9-------9------|-
E|----------------|-----------7------|----------------|------------------|----------------|-



E|------------------|------------------|----------------|------------------|----------------|---
B|------------------|------------------|------10---10-9-|------------------|------10---10-9-|---
G|-----9------------|------------------|------13---9--9-|-----9------------|------13---9--9-|---
D|---7---7/9-----11-|-----9---------11-|---11-----------|---7---7/9-----11-|---11-----------|---
A|-5-----------9----|---7---7/9---9----|-9-------9------|-5-----------9----|-9-------9------|---
E|-----------7------|-5---------7------|----------------|-----------7------|----------------|---



E|------------------|----------------|------------------|------------------|---------------------|-
B|------------------|------10---10-9-|------------------|------------------|---------------------|-
G|-----9---------11-|------13---9--9-|-----9------------|------------------|---------------------|-
D|---7---7/9---9----|---11-----------|---7---7/9-----11-|-----9---------11-|-4----4--------------|-
A|-5---------7------|-9-------9------|-5-----------9----|---7---7/9---9----|-4----4------7-7-----|-
E|------------------|----------------|-----------7------|-5---------7------|-2----2------4-5-----|-



E|-----------------|---------------------|-----------------|-
B|-----------------|---------------------|-----------------|-
G|-7-------6-------|---------------------|-7-------6-------|-
D|-7-------6-------|-4----4--------------|-7-------6-------|-
A|-5-------4-------|-4----4------7-7-----|-5-------4-------|-
E|-----------------|-2----2------4-5-----|-----------------|-



E|---------------------|-----------------|---------------------|----------
B|---------------------|-----------------|---------------------|----------
G|---------------------|-7-------6-------|---------------------|-7--------
D|-4----4--------------|-7-------6-------|-4----4--------------|-7--------
A|-4----4------7-7-----|-5-------4-------|-4----4------7-7-----|-5--------
E|-2----2------4-5-----|-----------------|-2----2------4-5-----|----------
http://www.guitartabcreator.com
Guitar Tab Creator is intended to store guitar tab created through the tool. It currently does not support in-line text editing. Any text you place in here will be lost. If you need to comment on your tab, please use the "Tab Notes" section located below.