WRITE SONG TO THIS!!!!!!!!!!!!!!!!!!

(/) Slide Up  (\) Slide Down  (h) Hammer On  (p) Pull Off  (b) Bend (r) Release (v) Vibrato


E|-7-----5-----4-2-0-4-----2-----7-----11-----9---------7h9-7---7-----5-----4-2-0-4-----
B|---0-----0-----------0-----0-----0------0-----0-----0-------8---0-----0-----------0---
G|-----0-----0-----------0-----0-----0------0-----0-0---------------0-----0-----------0-
D|--------------------------------------------------------------------------------------
A|-------------------2-----0------------------------------------------------------2-----
E|-5-----------------------------5-----9------7-----------------5-----------------------



E|-2-----0-----------------7-----5-----4-2-0-4-----2-----7-----11-----9---------7h9-7---
B|---0-----2---5-----7-----0-0-----0-----------0-----0-----0------0-----0-----0-------8-
G|-----0-----2---6-----7---0---0-----0-----------0-----0-----0------0-----0-0-----------
D|-----------------7-----7--------------------------------------------------------------
A|-0-----0-----0-----5-----------------------2-----0------------------------------------
E|-------------------------5-----------------------------5-----9------7-----------------



E|-7-----5-----4-2-0-4-----2-----0-----------------7-----5-----4-2-0-4-----2-----
B|---0-----0-----------0-----0-----2---5-----7-----0-0-----0-----------0-----0---
G|-----0-----0-----------0-----0-----2---6-----7---0---0-----0-----------0-----0-
D|-----------------------------------------7-----7-------------------------------
A|-------------------2-----0-----0-----0-----5-----------------------2-----0-----
E|-5-----------------------------------------------5-----------------------------
http://www.guitartabcreator.com
Guitar Tab Creator is intended to store guitar tab created through the tool. It currently does not support in-line text editing. Any text you place in here will be lost. If you need to comment on your tab, please use the "Tab Notes" section located below.