PIZZA MAN

(/) Slide Up  (\) Slide Down  (h) Hammer On  (p) Pull Off  (b) Bend (r) Release (v) Vibrato


E|-7-----5-----4-----2h4p2p0h2-4-----2-----7-----11-----9-------7h9-7---7-----5-----
B|---0-----0-----0---------------0-----0-----0------0-----0---0-------8---0-----0---
G|-----0-----0-----0---------------0-----0-----0------0-----0---------------0-----0-
D|----------------------------------------------------------------------------------
A|-------------0---------------2-----0----------------------------------------------
E|-5---------------------------------------5-----9------7---------------5-----------



E|-4-----2h4p2p0h2-4-----4-----2-----7-----11-----9-------9-7-5-4-0-4-----4-----2-----
B|---0---------------0-----0-----0-----0------0-----0---0-------------0-----0-----0---
G|-----0---------------0-----0-----0-----0------0-----0-----------------0-----0-----0-
D|------------------------------------------------------------------------------------
A|-0---------------2-----2-----0------------------------------------2-----2-----0-----
E|-----------------------------------5-----9------7-----------------------------------
http://www.guitartabcreator.com
Guitar Tab Creator is intended to store guitar tab created through the tool. It currently does not support in-line text editing. Any text you place in here will be lost. If you need to comment on your tab, please use the "Tab Notes" section located below.