NEW SONGGGGGGGGGGGGGGGGGGGG

(/) Slide Up  (\) Slide Down  (h) Hammer On  (p) Pull Off  (b) Bend (r) Release (v) Vibrato


E|-7-----5-----4-2-0-4-----2-----7-----11-----9-----9-7-5-4-7-----7-----
B|---0-----0-----------0-----0-----0------0-----0---0---------7-----7---
G|-----0-----0-----------0-----0-----0------0-----0-0-----------7-----7-
D|----------------------------------------------------------------------
A|-------------------2-----0--------------------------------------5-----
E|-5-----------------------------5-----9------7-------------5-----------



E|-7--------------11-------7-----
B|---7---9-----------11------7---
G|-----7----9-9---------11-----7-
D|--------------9----------------
A|-5-----------------------5-----
E|-------10-------9--------------
http://www.guitartabcreator.com
Guitar Tab Creator is intended to store guitar tab created through the tool. It currently does not support in-line text editing. Any text you place in here will be lost. If you need to comment on your tab, please use the "Tab Notes" section located below.