NEW SONG!!!!!!!!!!!!!!!!!!!!!!!!!!!!!!!!!!!!!

(/) Slide Up  (\) Slide Down  (h) Hammer On  (p) Pull Off  (b) Bend (r) Release (v) Vibrato


E|-7-----5-----4-2-4---------
B|---0-----0---------0-5-----
G|-----0-----0-----------0---
D|-------------------------0-
A|-----------------2---2-----
E|-5-------------------------



E|-4-----2-----1-------
B|---4-----4-----0---3-
G|-----4-----4-----0---
D|---------------------
A|-2-----2-----2-----2-
E|---------------------



E|-4-----2-----0-----------------
B|---4-----4-----0---4-4---2-2---
G|-----4-----4-----2-----2-----0-
D|-------------------------------
A|-------------------2-----0-----
E|-2-----2-----5-----------------



E|-4-----2-----0-----------------------------------
B|---4-----4-----0---4-----2-----5-----7-----7-----
G|-----4-----4-----2---4-----2-----4-----5-----7---
D|-----------------------4-----0-----0-----5-----5-
A|-------------------2-----0-----0-----0-----0-----
E|-2-----2-----5-----------------------------------
http://www.guitartabcreator.com
Guitar Tab Creator is intended to store guitar tab created through the tool. It currently does not support in-line text editing. Any text you place in here will be lost. If you need to comment on your tab, please use the "Tab Notes" section located below.