IDFK

(/) Slide Up  (\) Slide Down  (h) Hammer On  (p) Pull Off  (b) Bend (r) Release (v) Vibrato


E|--2--------2p0-----------------------------------0h2--3-----------5--3--2--0--
B|-----3----------3-----1--------3p1p0h1--3----------------5--------------------
G|--------2----------2-----0-----------------0----------------0-----------------
D|--0-------------------------2-----------------0----------------0--------------
A|----------------------3-----------------2----------------3--------------------
E|------------------------------------------------------------------------------



E|-----------0--3--5--0-----------0--3--2--0-----------7--5--2--------2--3--2--0--
B|--5--------------------3--------------------5-----------------0-----------------
G|-----0--------------------0--------------------0-----------------0--------------
D|--------0--------------------0--------------------0--5--4--0--------------------
A|--3--------------------2--------------------3-----------------------------------
E|--------------------------------------------------------------------------------
http://www.guitartabcreator.com
Guitar Tab Creator is intended to store guitar tab created through the tool. It currently does not support in-line text editing. Any text you place in here will be lost. If you need to comment on your tab, please use the "Tab Notes" section located below.