the day I'll never forget

(/) Slide Up  (\) Slide Down  (h) Hammer On  (p) Pull Off  (b) Bend (r) Release (v) Vibrato
E|-------------------------------------------------------------------------3---0---------3---0-
B|-----1---0h1---1-----1---0h1---3-----3---1---0-------0---0h1-0-------1-------------1---------
G|---0---0-----0-----0---0-----0-----0---0---0---0---0---0-----------2---2---2-----2---2---2---
D|---------------------------------------------------------------0-3-------------3-------------
A|-3---------------3---------------3---------------3-------------------------------------------
E|---------------------------------------------------------------------------------------------



E|---------0---------------------------
B|-----3-------3---1-----1---0h1-0-----
G|---2---2---2---2-----2---2-----------
D|-3-----------------------------------
A|-------------------0-------------0-3-
E|-------------------------------------
http://www.guitartabcreator.com
Guitar Tab Creator is intended to store guitar tab created through the tool. It currently does not support in-line text editing. Any text you place in here will be lost. If you need to comment on your tab, please use the "Tab Notes" section located below.