BADASS

(/) Slide Up  (\) Slide Down  (h) Hammer On  (p) Pull Off  (b) Bend (r) Release (v) Vibrato


E|-------------------------------------------------------------------------
B|-----0-----------0-----------0-----------0-----------0-----------0-------
G|-------0---0-------0---0-------0---0-------0---0-------0---0-------0---0-
D|-------------------------------------------------------------------------
A|---9-----9-----9-----9-----7-----7-----7-----7-----9-----9-----9-----9---
E|-7-----------7-----------5-----------5-----------7-----------7-----------



E|-------------------------------------------------------------------------
B|-----0-----------0-----------0-----------0-----------0-----------0-------
G|-------0---0-------0---0-------0---0-------0---0-------0---0-------0---0-
D|-------------------------------------------------------------------------
A|---5-----5-----4-----4-----9-----9-----9-----9-----7-----7-----7-----7---
E|-3-----------2-----------7-----------7-----------5-----------5-----------



E|-------------------------------------------------
B|-----0-----------0-----------0-----------0-------
G|-------0---0-------0---0-------0---0-------0---0-
D|-------------------------------------------------
A|---9-----9-----9-----9-----5-----5-----4-----4---
E|-7-----------7-----------3-----------2-----------
http://www.guitartabcreator.com
Guitar Tab Creator is intended to store guitar tab created through the tool. It currently does not support in-line text editing. Any text you place in here will be lost. If you need to comment on your tab, please use the "Tab Notes" section located below.