Away With the Wind-Caleb Topo

(/) Slide Up  (\) Slide Down  (h) Hammer On  (p) Pull Off  (b) Bend (r) Release (v) Vibrato
E|-7-9-11-9-7-7-9-7-----9/11-11-12-15-17-20-19-17-------19-19-
B|-7----------8-----8-7---------13----------------18-17-------
G|-8----------9-----------------14----------------------------
D|------------------------------------------------------------
A|------------------------------------------------------------
E|------------------------------------------------------------



E|--------------------12-------12-------12-------12----12-14-15-
B|------8-10/12-12-13----13-12----12-10----10-------------------
G|----9---------------------------------------12----12-12-12-12-
D|-10-----------------------------------------------------------
A|--------------------------------------------------------------
E|--------------------------------------------------------------



E|------------15--14--12--12--14--12--11--------7---------7--10--7--5--7--5--4--
B|--------13--------------11-----------------8--------10------------5--------5--
G|----12------------------11--------------7--------7----------------6--------6--
D|------------------------------------------------------------------------------
A|------------------------------------------------------------------------------
E|------------------------------------------------------------------------------



E|-----7/9-9-10-7-7-9-5-5-5-
B|-7-5-----7------5-------5-
G|---------7------5-------6-
D|--------------------------
A|--------------------------
E|--------------------------
http://www.guitartabcreator.com
Guitar Tab Creator is intended to store guitar tab created through the tool. It currently does not support in-line text editing. Any text you place in here will be lost. If you need to comment on your tab, please use the "Tab Notes" section located below.